Cifra da música: The Stage - Avenged Sevenfold

Esse cifra de Avenged Sevenfold já foi acessado por 520 pessoas.

Comente

A música The Stage fez muito sucesso quando foi gravada por Avenged Sevenfold. Quer conhecer as demais músicas? Conheça as letras das músicas gravadas por Avenged Sevenfold e aproveite.

Veja também o vídeo da música tocada.


Tom: G

Afinação: Drop D

Intro] - Lead


E|-----7-----7-----7-----7-----7---------|
B|-5-7---5-7---5-7---5-7---5-7---7-------|
G|---------------------------------------|
D|---------------------------------------|
A|---------------------------------------|
D|---------------------------------------|


E|-----8-----8-----8-----8-----8---------|
B|-5-8---5-8---5-8---5-8---5-8---8-------|
G|---------------------------------------|
D|---------------------------------------|
A|---------------------------------------|
D|---------------------------------------|


E|---5-8---5-8---5-8---5-8---5-8-5-------|
B|-5-----5-----5-----5-----5-------------|
G|---------------------------------------|
D|---------------------------------------|
A|---------------------------------------|
D|---------------------------------------|


E|-----8-----8-----7-----7-----7---------|
B|-4-7---4-7---4-7---4-7---4-7---7-------|
G|---------------------------------------|
D|---------------------------------------|
A|---------------------------------------|
D|---------------------------------------|


E|-----7-----7-----7-----7-----7---------|
B|-5-7---5-7---5-7---5-7---5-7---7-------|
G|---------------------------------------|
D|---------------------------------------|
A|---------------------------------------|
D|---------------------------------------|


E|-----8-----8-----8-----8-----8---------|
B|-5-8---5-8---5-8---5-8---5-8---8-------|
G|---------------------------------------|
D|---------------------------------------|
A|---------------------------------------|
D|---------------------------------------|


E|---5-8---5-8---5-8---5-8---5-8-5-------|
B|-5-----5-----5-----5-----5-------------|
G|---------------------------------------|
D|---------------------------------------|
A|---------------------------------------|
D|---------------------------------------|


E|-----8-----8-----7-----7---------15h19p15-------|
B|-4-7---4-7---4-7---4-7---------17--------17-----|
G|-----------------------------16------------16---|
D|---------------------------17----------------17-|
A|-------------------------19---------------------|
D|------------------------------------------------|


Repeat this how many times it's necessary 

[Intro] - Rhythm Comes in after the 2nd time all above is played.


E|---------------------------------------------------------------------------|
B|---------------------------------------------------------------------------|
G|---------------------------------------------------------------------------|
D|-2-------------------------------------------------------------------------|
A|-2-------------------------------------------------------------------------| < Keep this for a whole lead
D|-2-------------------------------------------------------------------------|   intro



The 3rd time the lead is played


E|-------------------------------------------------------------|
B|-------------------------------------------------------------|
G|---------------5---------------2--------------4--------------| x 2
D|-2-------------5---------------2--------------4--------------|
A|-2-------------3---------------0--------------2--------------|(Every power chord is held for 
D|-2-----------------------------------------------------------| one bar) 


The last 2 bars , instead of this :


E|---5-8---5-8---5-8---5-8---5-8-5-------|
B|-5-----5-----5-----5-----5-------------|
G|---------------------------------------|
D|---------------------------------------|
A|---------------------------------------|
D|---------------------------------------|


E|-----8-----8-----7-----7---------15h19p15-------|
B|-4-7---4-7---4-7---4-7---------17--------17-----|
G|-----------------------------16------------16---|
D|---------------------------17----------------17-|
A|-------------------------19---------------------|
D|------------------------------------------------|


Play this:
 

E|---17----21--17----------------------------------------------------------------15-19-------------|
B|-----------------18----22--18--------18--------------------------------------17-----17-----------|
G|-------------------------------17--------17--------------------------------16---------16-17-19b21|
D|-------------------------------------------17----------------------------17----------------------|
A|---------------------------------------------19----14--15--17--15--17--19------------------------| 
D|-------------------------------------------------------------------------------------------------| 



Then after this , the lead is just some 15 bends on the B string


Rhythm :


E|---------------------------------------------------------------------------|
B|---------------------------------------------------------------------------|
G|---------------------------------------------------------------------------|
D|-2-----2-----2-----1-----1-----1-------------------------------------------|
A|-2-----2-----2-----1-----1-----1-------------------------------------------| < This is also the guitar for 
D|-2-x-x-2-x-x-2-x-x-1-x-x-1-x-x-1-------------------------------------------|  The verse 


[Verse](1.32-2.08) (check out for rhythm )


D|---------------------------------------------------------------------------|
B|---------------------------------------------------------------------------|
G|---------------------------------------------------------------------------|
D|----2----------1-----------------------------------------------------------|
A|----2----------2-----------------------------------------------------------|
D|----2----------1-----------------------------------------------------------|(x10)



(2.08- 2.15)

D|---------------------------------------------------------------------------|
B|---------------------------------------------------------------------------|
G|---------------------------------------------------------------------------|
D|----5---4----2---------4---2----------4------2---------5--4----------------|
A|----3---2----2---4--5--2---2---4---5--2------2---4--5--3--2----------------|
D|-------------2---4--5------2---4---5---------2---4--5-----2----------------|



[Chorus](2.15-2.30)


D|---------------------------------------------------------------------------|
B|---------------------------------------------------------------------------|
G|---------------------------------------------------------------------------|
D|-----2----5p3----7----4----------------------------------------------------|
A|-----2----3------5----2----------------------------------------------------|
D|-----2----3----------------------------------------------------------------|


(2.30-3.04)

D|---------------------------------------------------------------------------|
B|---------------------------------------------------------------------------|
G|---------------------------------------------------------------------------|
D|----2-x-2-2-2-----2-----1-x-1-1-1------------------------------------------|
A|----2-x-2-2-2-----2-----2-x-2-2-2------------------------------------------|
D|----2-x-2-2-2h5p2-2-----1-x-1-1-1h4p1--------------------------------------|(x10)





(3.05- 3.12)

D|---------------------------------------------------------------------------|
B|---------------------------------------------------------------------------|
G|---------------------------------------------------------------------------|
D|----5---4----2---------4---2----------4------2---------5--4----------------|
A|----3---2----2---4--5--2---2---4---5--2------2---4--5--3--2----------------|
D|-------------2---4--5------2---4---5---------2---4--5-----2----------------|



(3.12-4.06)

D|---------------------------------------------------------------------------|
B|---------------------------------------------------------------------------|
G|---------------------------------------------------------------------------|
D|-----2----5p3----7----4----------------------------------------------------|
A|-----2----3------5----2----------------------------------------------------|
D|-----2----3----------------------------------------------------------------|



(4.15-4.55)chords- Em D G Am G D

[solo rhythm ](4.55-5.24)


D|---------------------------------------------------------------------------|
B|---------------------------------------------------------------------------|
G|---------------------------------------------------------------------------|
D|------5---------8-------10------4------------------------------------------|
A|------5---------6-------8-------5------------------------------------------|
D|------5---------5-------7-------4------------------------------------------|


[second verse](5.24-6.20)


D|---------------------------------------------------------------------------|
B|---------------------------------------------------------------------------|
G|---------------------------------------------------------------------------|
D|------5---------8-------10------4------------------------------------------|
A|------5---------6-------8-------5------------------------------------------|
D|------5---------5-------7-------4------------------------------------------|



(6.20-6.35)

D|---------------------------------------------------------------------------|
B|---------------------------------------------------------------------------|
G|---------------------------------------------------------------------------|
D|----2-x-2-2-2-----2-----1-x-1-1-1------------------------------------------|
A|----2-x-2-2-2-----2-----2-x-2-2-2------------------------------------------|
D|----2-x-2-2-2h5p2-2-----1-x-1-1-1h4p1--------------------------------------|(x10)


(6.35-6.41)

D|---------------------------------------------------------------------------|
B|---------------------------------------------------------------------------|
G|---------------------------------------------------------------------------|
D|----5---4----2---------4---2----------4------2---------5--4----------------|
A|----3---2----2---4--5--2---2---4---5--2------2---4--5--3--2----------------|
D|-------------2---4--5------2---4---5---------2---4--5-----2----------------|



(6.41-8.00)

D|---------------------------------------------------------------------------|
B|---------------------------------------------------------------------------|
G|---------------------------------------------------------------------------|
D|-----2----5p3----7----4----------------------------------------------------|
A|-----2----3------5----2----------------------------------------------------|
D|-----2----3----------------------------------------------------------------|


Quer fazer uma correção nesta cifra?







    Comentários (0) Postar um Comentário

    Nenhum comentário encontrado. Seja o primeiro!