Cifra da música: Why'd You Only Call Me When You're High? - Arctic Monkeys

Esse cifra de Arctic Monkeys já foi acessado por 232 pessoas.

Comente

A música Why'd You Only Call Me When You're High? fez muito sucesso quando foi gravada por Arctic Monkeys. Quer conhecer as demais músicas? Conheça as letras das músicas gravadas por Arctic Monkeys e aproveite.

Veja também o vídeo da música tocada.


Tom: G

Intro: F#m D Bm

Intro/Verso (Palm Muted)

E|---------------------------|
B|---------------------------|
G|---------------------------|
D|---------------------------|
A|----4-5-5--2--4-2-0--------|
E|-2-------------------------|


Chorus (Palm Muted)

E|-------------------------------------|
B|-------2-3-5-3-2-------2-------------|
G|---2-4-----------4-2-4---4-2---2-----|
D|-4---------------------------4-------|
A|-------------------------------------|
E|-------------------------------------|


Repetir Verso c/ Jamie no fundo

E|------------|
B|-14s7--7s13-|
G|------------|
D|------------|
A|------------|
E|------------|





Repete verso c/ Alex no fundo (Palm Muted)


E|-------------------9-10-7-9----------|
B|-------------------------------------|
G|----11-11-11-11-11-------------------|  (4x)
D|-------------------------------------|
A|-------------------------------------|
E|-------------------------------------|



F#m                  D       Bm
The mirror's image tells me it's home time
F#m                  D       Bm
But I'm not finished 'cause you're not by my side
F#m             D          Bm
And as I arrived I thought I saw you leaving, carrying your shoes
F#m             D                    Bm
Decided that once again I was just dreaming of bumping into you

F#m          D         Bm
     Now it's three in the morning
                             F#m
And I'm trying to change your mind
             D    Bm
Left you multiple missed calls
                      F#m
And to my message, you reply

F#m         D                           Bm
         Why'd you only call me when you're high?
F#m         D                        Bm
High, why'd you only call me when you're high?

(F#m D Bm )
Somewhere darker, talking the same shite
I need a partner (high), well, are you out tonight?
It's harder and harder to get you to listen, more I get through the gears
Incapable of making alright decisons and having bad ideas

Now it's three in the morning
And I'm trying to change your mind
Left you multiple missed calls
And to my message, you reply (message, you reply)

Why'd you only call me when you're high?
(Why'd you only call me when you're)
High, why'd you only call me when you're high? 

(Bm D)

              F#m                              Bm D
And I can't see you here, wonder where am I
            F#m                                Bm D
It sorta feels like I'm running out of time
           F#m                                 Bm D
I haven't found what I was hoping to find

    


(Nessa parte , você toca a nota só uma fez, e abafa na mesma hora ) 


                C#
You said you gotta be up in the morning, gonna have an early night         
             C#
And you're starting to bore me, baby, why'd you only call me when you're high?

(D F#m Bm D F#m)
           D         Bm                   F#m
Why'd you only ever phone me when you're high?
           D         Bm                   F#m
Why'd you only ever phone me when you're high?
           D         Bm                   F#m
Why'd you only ever phone me when you're high?
          D          Bm
Why'd you only ever phone me when you're
High?


Quer fazer uma correção nesta cifra?







    Comentários (0) Postar um Comentário

    Nenhum comentário encontrado. Seja o primeiro!