Cifra da música: God Am - Alice In Chains

Esse cifra de Alice In Chains já foi acessado por 364 pessoas.

Comente

A música God Am fez muito sucesso quando foi gravada por Alice In Chains. Quer conhecer a letra dela? Veja a letra de God Am e cante.

Veja também o vídeo da música tocada.


verso
Dear god how........   Í`m not fine fuck.....
e------0--------0---------
b------0--------0----2----
g------0--------0--4-2----
D-3-3-3--3-3-3-----4-2-3-3
A-3-3-3--3-3-3-----2---3-3
E-1-1-1--1-1-1---------1-1
refrao
can i be as my god am
-----------------
-----------------
-----------------
3-/5-/9--9/-7-/3-
3-/5-/9--9/-7-/3-
1-/3-/7--7/-5-/1-

Solo (depois do segundo refrao)
e--------------------------------------------------
b--------------------------------------------------
g--------------------------------------------------
d--------------------------------6~-----------------
a---2--2/-6/-4-4/--2-2-2---1-2-1-------------------
E-----------------------------------------------



letra
'Sure God is all powerful, but does he have lips?
Whoa...'

Dear God, how have you been, then?
I'm not fine, fuck pretending
All of this death you're sending
Best throw some free heart mending

Invite you in my heart, then
When done, my sins forgiven?
This God of mine relaxes
World dies I still pay taxes

Can I be as my God am
Can you be as God am
Can I be as my God am
God of all my God am

So Lord, I see you grinnin'
Must be grand always winning
How proud are you being able
To gather faith from fable

Can I be as my God am
Can you be as God am
Can I be as my God am
God of all my God am
God am
My God am
God am
God

All the respect I'm giving
Shared strength acquired by livin'
All bloomin' life you're feeding
Can't hide sick ones you're weeding

Can I be as my God am
Can you be as God am
Can I be as my God am
God of all my God am
God am
God am
God am
God am




Quer fazer uma correção nesta cifra?








    Comentários (0) Postar um Comentário

    Nenhum comentário encontrado. Seja o primeiro!