Cifra da música: Brother - Alice In Chains

Esse cifra de Alice In Chains já foi acessado por 821 pessoas.

Comente

A música Brother fez muito sucesso quando foi gravada por Alice In Chains. Quer conhecer a letra dela? Veja a letra de Brother e cante.

Veja também o vídeo da música tocada.


BASE
e-0----0---0-0--0---0--0---0-0--|---0--0--0--0------------------------------
B-2----2---2-2--2---2--2---2-2--|---2--2--2--2--3-/-5--3--2-----------------
G-2----2---2-2--2---2--2---2-2--|---2--2--2--2--0-/-0--0--2-----------------
D-2----2---2-2--2---2--2---2-2--|---2--2--2--2--3-/-5--3--2-----------------
A-0----0---0-0--0---0--0---0-0--|---0--0--0--0--0-/-0--0--0-----------------


Refrão:  F	A4 D2	F	G


Solo de entrada.
B    ------------------5h5^h5-3h3^h3------------------5h5^h5-3h3^h3-8h8^h8--------
D    ----------------7--------------------------------------------------------------
A    ------5-7--7/8-------------------------5-7--7/8------------------------------
E    5--7-----------------------------5--7----------------------------------------

Solo
     F				A4
e    -------------------------------------5-----5-------------------------------
B    -----------------------------------5-----5-----5--8^--8---7--5--7^--5------
G    -----------5--7^--7^--5-----5---7--------------------------------------7--5
D    5h7--5--7----------------7-------------------------------------------------

		     F					    G
G    7--5-------------------------------------------------------5--7--7^---7----
D    ------7--5--7r5--5h7--7-------------------------------5-7------------------
A    --------------------------5--3---5^-5^-----------5--7----------------------
E    ----------------------------------------5--3--5----------------------------
					 A(BASE)
e    ---------------------------------------------------------5--9^--7--5-------
B    ---5---------------------------------------------------5--------------7^--5
G    7-----7--7^--7^--7^-5----7^--7^--7^-5----------------5---------------------
D    ----------------------7---------------7---5--5h7s--5-----------------------

B    7--5--7h7^--5--------7-5---------------------------------------------------
G    ---------------7--5------7-5-----------------------------------------------
D    -------------------------------5--5h7-5h7----------------------------------

Solo final
B    ------------------5h5^h5-3h3^h3-------------------5h5^h5-3h3^h3-8h8^h8---
D    ----------------7-------------------------------7-------------------------
A    ------5-7--7/8------------------------5-7--7/8---------------------------
E    5--7-----------------------------5--7-------------------------------------




Quer fazer uma correção nesta cifra?








    Comentários (0) Postar um Comentário

    Nenhum comentário encontrado. Seja o primeiro!