Cifra da música: Nega - Luan Santana

Esse cifra de Luan Santana já foi acessado por 213 pessoas.

Nega 5.00/ 5 - 1
Comente

A música Nega fez muito sucesso quando foi gravada por Luan Santana. Quer conhecer a letra dela? Veja a letra de Nega e cante.


Tom: B

Intro: B5(9) E

Primeira Parte:
B5(9)
Eu sei você sofreu demais
E sabe que eu não fui capaz
E
Mas mas mas
B5(9)
Aquele sonho que era meu

Descobri não era seu
E
É não deu

Segunda Parte:
C#m E
Não deu certo quanto a gente planejou
B5(9)
Mas o amor nos deu mais uma chance
F#
Volta e vem viver esse romance

Refrão:
B5(9)
Nega chega junto
F#
Vem me amar
Vem cá
C#m E
Já tava arrumando a minha vida
B
Mas to doido pra ce bagunçar
F#
Nega
B5(9) F#
Nega a saudade não quer so...ssegar
C#m E
Só tá aumentando e o seu nego
B5(9)
Tá indo aí pra te buscar
F# E
Nega
F# G#m F#5(9)/A#
Eu to pronto pra te amar

Solo: G#5 B F#5


Solo:

E|-----------------------------------------------
B|-----------------------------------------------
G|---------------------4p3-----------------------
D|--6--6--6--6-4-6-4-6-----6---------------------
A|--6--6--6--6-6-6-6-6-------7-7-6-7-6-7-7-6-7~~-
E|--4--4--4--4-4-4-4-4-------0-0-0-0-0-0-0-0-----


E|------------------7----------------------------
B|--------------7--------14/16-14p12-14p12-------
G|--8-----8--------------------------------------
D|--9----9---------------------------------------
A|--9--------------------------------------------
E|--7--7-----7---7----7--------------------------


E|--------12/14----------------------------------
B|----------------------7-7-------7-7--7-7-7-7---
G|--13-11-----------6-6-----6-6---6-6--6-6-6-6---
D|--------------4-4---------------4-4--4-4-4-4---
A|-----------------------------------------------
E|-----------------------------------------------

Final:

E|--0-0----------------------------5-6-7-2-------
B|--0-0--------------------6-7-8-9-------2-------
G|--1-1------------6-7-8-9---------------4-------
D|--2-2----6-7-8-9-----------------------4-------
A|--2-2----------------------------------2-------
E|--0-0------------------------------------------

Quer fazer uma correção nesta cifra?

Para enviar você precisa efetuar um cadastro gratuito no site. Caso já tenha um cadastro, acesse aqui.


    Comentários (0) Postar um Comentário

    Nenhum comentário encontrado. Seja o primeiro!