Letra da Música: Ave Maria - Jorge Aragão

Esse letra de Jorge Aragão já foi acessado por 663 pessoas.

Comente

A música Ave Maria fez muito sucesso quando foi gravada por Jorge Aragão. Que tal aprender a tocar outras músicas? Veja cifras de Jorge Aragão e toque as músicas que mais gosta no violão ou guitarra.

Veja também o vídeo da música tocada.


A|--0----1----3-------0---------------|------------------------------0------------------------------------
D |----------------2------------------|-------------------0-----2-------2----------------------0---2----0-
G|------------------------------------|---------2----4---------------------------0----2----4--------------
B|------------------------------------|-------------------------------------------------------------------
E|------------------------------------|-------------------------------------------------------------------

e|---5----------------------------------------|-----------------------2-----------------------------------
A|-----------------0---2----0-----------------|---0-----1-----3------------------------------------------
D |-------0----2-----------------2------------|-----------------------------------------------------------
G|------------------------------------2----4--|-----------------------------2-----------------------------
B|--------------------------------------------|-----------------------------------------------------------
E|--------------------------------------------|-----------------------------------------------------------

e|-----------------------------|------------------------0---2----4----2-----0-------------------------
A|-------0---1-----3-----------|--------------0----1-----------------------------------0--------------
D|---2-------------------------|----0----2----------------------------------------2-------------------
G|----------------------0------|----------------------------------------------------------------------
B|-----------------------------|----------------------------------------------------------------------
E|-----------------------------|----------------------------------------------------------------------

e|--------------------2---------2------|---2-----5-------5-----5---------------------------------------
A|---3----0-----0----------------------|---------------------------------------------------------------
D|-----------------------------------0-|--------------3---------------2--------------------------------
G|-------------------------2-----------|---------------------------------------------------------------
B|-------------------------------------|---------------------------------------------------------------
E|-------------------------------------|---------------------------------------------------------------

e|---------------------0------------------------7---4-----|-----4---5---9---5-----------------------
A|--2----2-----0---------0------1----1------------------3-|--5-------------------3----0-------------
D|-----------------------------0----------4---2-----------|--------------------------------2--------
G|----------------4---------------------------------------|-----------------------------------------
B|--------------------------------------------------------|-----------------------------------------
E|--------------------------------------------------------|-------------------------------------------

e|---2---4---2----0-----|---7----4-------------------------------|----------------0----| F
A|----------------------|------------3-----1---------------------|---------------------|
D|----------------------|------------------------2---------------|------0--------------| I
G|----------------------|-----------------------------4----0-----|---------------------|
B|----------------------|----------------------------------------|---------------------| M
E|----------------------|----------------------------------------|---------------------|

___________________________________________________________


Quer fazer uma correção nesta letra?







    Comentários (0) Postar um Comentário

    Nenhum comentário encontrado. Seja o primeiro!