Cifra da música: Eu Bebo Sim - Velhas Virgens

Esse cifra de Velhas Virgens já foi acessado por 709 pessoas.

Comente

A música Eu Bebo Sim fez muito sucesso quando foi gravada por Velhas Virgens. Quer conhecer a letra dela? Veja a letra de Eu Bebo Sim e cante.

Veja também o vídeo da música tocada.


Tom.:E

Intro: A 1ª vez é tocada apenas pelo baixo, a guitarra entra à partir da 2ª.

     
e|-----------------------------------------------|
B|-----------------------------------------------|
G|-----------------------------------------------|
D|-----------------------------------------------|
A|-----------------------------------------------|
E|--0--0---2--3---0--0---2--3---0--0---2--3---0--| x4


-Riff1 : É tocado durante toda a música.

                    
e|------------------------------------------------------------------------------|
B|------------------------------------------------------------------------------|
G|------------------------------------------------------------------------------|
D|------------------------------------------------------------------------------|
A|-----------------------------0--0---2--3---0--0---2--3----2-2-2-2--0-0-0-0----|
E|--0--0---2--3---0--0---2--3---------------------------------------------------| 


-Riff2 : É tocado na última estrofe 'Bebida não faz mal à ninguém...'
        
e|------------------------------------------------------------------------|
B|------------------------------------------------------------------------|
G|------------------------------------------------------------------------|
D|------------------------------------------------------------------------|
A|-----------------------------0--0---2--3---0--0---2--3----2-2---0-0-----|
E|--0--0---2--3---0--0---2--3------------------------------------------0-0|x2 


(Riff1)
         E
Eu bebo sim 
         A
Eu tô vivendo 
     B             A
Tem gente que não bebe 
         E
E tá morrendo 
         
Eu bebo sim 
         A
Eu tô vivendo 
     B             A
Tem gente que não bebe 
         E
E tá morrendo 



     E 		                 A
Tem gente que já tá com o pé na cova 
                   B
Não bebeu e isso prova 
        A             E
Que a bebida não faz mal
	                           A
Uma pro santo, desce o choro, a saideira
                   B
Desce toda a prateleira
          A          E
Diz que a vida tá legal



         E
Eu bebo sim 
         A
Eu tô vivendo 
     B             A
Tem gente que não bebe 
         E
E tá morrendo 
         
Eu bebo sim 
         A
Eu tô vivendo 
     B             A
Tem gente que não bebe 
         E
E tá morrendo 



     E	                    A
Tem gente que detesta um pileque
                      B
Diz que é coisa de moleque
     A                E
Cafajeste ou coisa assim
	                                 A
Mas essa gente, quando está com a cara cheia
                 B
Vira chave de cadeia
    A           E
Esvazia o botequim



         E
Eu bebo sim 
         A
Eu tô vivendo 
     B             A
Tem gente que não bebe 
         E
E tá morrendo 
         
Eu bebo sim 
         A
Eu tô vivendo 
     B             A
Tem gente que não bebe 
         E
E tá morrendo 


(Riff2)
                        A 
Bebida não faz mal à ninguem
B        A       E
Água faz mal à saúde!
                        A 
Bebida não faz mal à ninguem
B        A       E
Água faz mal à saúde!



Quer fazer uma correção nesta cifra?







    Comentários (0) Postar um Comentário

    Nenhum comentário encontrado. Seja o primeiro!