Cifra da música: Luz Del Fuego - Rita Lee

Esse cifra de Rita Lee já foi acessado por 1049 pessoas.

Comente

A música Luz Del Fuego fez muito sucesso quando foi gravada por Rita Lee. Quer conhecer a letra dela? Veja a letra de Luz Del Fuego e cante.

Veja também o vídeo da música tocada.


(Part. Esp: Cássia Eller)

Solo: 1a parte
E|-------------------------------------------------------------------------------------
B|---------------5-5-----------1/4---6---4---6------------------------------8-8-7-7-5--
G|-7-5-------5-7-------------2-----5---7---5---7-5---5-8-7-5------4-5-7-4---8-8-7-7-5--
D|-----7-5/7---------7-5/7-----------------------------------6--6-----------8-8-7-7-5--
A|-------------------------------------------------------------------------------------
E|-------------------------------------------------------------------------------------

E|-(5)-----------------
B|-(5)---(1)-----------
G|-------------3-1-----
D|-----------------3---
A|---------------------
E|---------------------



Intro: G7 C G

    A                     F
Eu hoje represento a loucura, mais o que você quiser
G#             G          Eb    D        C        F  C
Tudo que você vê sair da boca de uma grande mulher, porém louca!
   A                    F
Eu hoje represento o segredo enrolado no papel
G#                G            Eb     D        C  F C
Como Luz Del Fuego não tinha medo, ela também foi pro céu cedo!
   A                    F
Eu hoje represento uma fruta, pode ser até maçã
G#              G          Eb     D      C  F  C
Não, não é pecado, só o convite, venha me ver amanhã, mesmo!
      G C      G C     A   D         A  D      B E D C Bb
Amanhã,   amanhã,   amanhã, mesmo! Amanhã,   amanhã...

    A                    F
Eu hoje represento o folclore, enrustido no metrô
G#                G            Eb   D          C     F  C
Da grande cidade que está com pressa, de saber onde eu vou, sem essa!
   A                     F
Eu hoje represento a cigarra, que ainda vai cantar
G#               G             Eb    D     C      F C
Nesse formigueiro, quem tem ouvidos, vai poder escutar meu grito!
    A                    F
Eu hoje represento a pergunta, na barriga da mamãe
G#              G            Eb   D      C   F C
E quem morre hoje, nasce outro dia, pra viver amanhã e sempre
      G  C           G C     A   D           A  D      B E D C Bb
Amanhã e sempre! Amanhã,   amanhã e sempre! Amanhã,    amanhã...

Solo: (A F G# G Eb D C F C) 2 vezes

      G  C           G C      A   D          A  D      B E D C Bb
Amanhã e sempre! Amanhã,   amanhã e sempre! Amanhã,   amanhã...






Quer fazer uma correção nesta cifra?







    Comentários (0) Postar um Comentário

    Nenhum comentário encontrado. Seja o primeiro!