Cifra da música: Bem-Me-Quer - Rita Lee

Esse cifra de Rita Lee já foi acessado por 896 pessoas.

Comente

A música Bem-Me-Quer fez muito sucesso quando foi gravada por Rita Lee. Quer conhecer a letra dela? Veja a letra de Bem-Me-Quer e cante.

Veja também o vídeo da música tocada.


Rita Lee - Roberto de Carvalho


Intro:
E----------17----------15----------14---14-13-12-11------------17----------15----------14-
B-----------------------------------------------------------------------------------------
G-14-16-14----12-14-12----11-13-11--------------------14-16-14----12-14-12----11-13-11----
D-----------------------------------------------------------------------------------------
A-----------------------------------------------------------------------------------------
E-----------------------------------------------------------------------------------------

E----------------11-12-14-16--
B----------12-14--------------
G-11-13-14--------------------
D-----------------------------
A-----------------------------
E-----------------------------


Solo:
E-------------------------------------------------------------------------------------------15--
B-14-14-14-14-------14-------------------------------------------------------14-17-17-14-17-----
G-------------16-------16-------------------------------------------------16--------------------
D----------------14-------14-14---14-16-14-16-17-16-14-17-16-14-14-14--14-----------------------
A-----------------------------------------------------------------------------------------------
E-----------------------------------------------------------------------------------------------

E-14--------------------------------------------------------------------------------------------
B----17-15-------15----15-14-------14----14----14----14---------------------15-17-19-20-19-17---
G----------16-16----16-------15-15----15----16----16----16---------------16---------------------
D----------------------------------------------------------14-14---14-17------------------------
A-----------------------------------------------------------------------------------------------
E-----------------------------------------------------------------------------------------------

E-----------------------------------------(21)--------------------------------------------------
B-20-19-17-20--20-19-17-17-------17-------------17-17----17----20-19-17-15-------15----15-14----
G--------------------------16-18----18-16-------------18----18-------------16-16----16-------15-
D-----------------------------------------------------------------------------------------------
A-----------------------------------------------------------------------------------------------
E-----------------------------------------------------------------------------------------------

()=repetidas vezes

E---------------------------------------
B----14----14--------14----14----14-17--
G-15----15----16--16----16----16--------
D---------------------------------------
A---------------------------------------
E---------------------------------------


[Intro:] A G F# B4/7

E7
Diga que me odeia
                          F#7
Mas diga que não vive sem mim
           B7
Eu sou uma praga
  A                   E7
Maria-sem-vergonha do seu jardim

Você tem ciúme
Mas gosta de me ver rebolar
Eu topo tudo
Sou flor que se cheire em qualquer lugar

A             E7         A
Bem-me-quer, mal-me-quer
              E7         A
Bem-me-quer, mal-me-quer...
              G
Bem-me-quer, mal-me-quer
F#7         B7
Bem-me-quer

Rasgue minha roupa
Mas por favor não dê beliscão
Eu fico nua
Depois você reclama quando eu chamo atenção

Xingue minha laia
Mas venha me fazer cafuné
Eu faço greve
Até você me amar ou dar um pontapé



Quer fazer uma correção nesta cifra?







    Comentários (0) Postar um Comentário

    Nenhum comentário encontrado. Seja o primeiro!