Cifra da música: Do You Remember Rock'n'Radio - Ramones

Esse cifra de Ramones já foi acessado por 465 pessoas.

Comente

A música Do You Remember Rock'n'Radio fez muito sucesso quando foi gravada por Ramones. Quer conhecer as demais músicas? Conheça as letras das músicas gravadas por Ramones e aproveite.

Veja também o vídeo da música tocada.


     riff 1                                                                                                       

 E----------------------------------------
 B----------------------------------------
 G----------------------------------------
 D--5-5--------5-5-----------------------
 A--3-3--5-5--3-3--5-5-5-5-5-5-5-5----
 E -------3-3--------3-3-3-3-3-3-3-3----  

    riff 2 

 E------------------------------------------
 B------------------------------------------
 G------------------------------------------
 D------------------------------------------
 A--3--4--5--5-5-5-5-5-5-5---------------
 E --1--2--3--3-3-3-3-3-3-3---------------

   riff 3 

 E------------------------------------------------------------------------------------------
 B------------------------------------------------------------------------------------------
 G-----------------------------------------------2----------------------------4------------
 D--------------------2-------------2--2--5--5-----5-----------4--4--7--7-----7---------
 A-------2--2--5--5-----5---3--3------------------------5--5-----------------------------
 E--3-3-------------------------------------------------------------------------------------

 E---------------------------                                 base do riff 3     G  C  D  G  D
 B---------------------------                                                               
 G---------------------------                                
 D--5--5---------------------
 A---------7--7--5--5-------
 E-----------------------7--5

    riff 4

 G  C  D 

   ]



  riff 5 	

E--2--3--3---2--3--3-----2--3----2--3--3----2--3--
B--2--3--3---2--3--3-----2--3----2--3--3----2--3--
G-----------------------------------------------------
D-----------------------------------------------------
A-----------------------------------------------------
E-----------------------------------------------------
 
   riff 6

 Am  D  G  F#m   Em  
 C  D  G  
 C  D  G  F#m  Em
 C  D

                                      
	riff 1 (2x)                                                                                         
	riff 2 (6x)                                                                       
	riff 3 (2x)                                                                   
	riff 4 (4x)                                                                   
	riff 3 (2x)                                                                   
       	riff 4 (4x)                                                                
	riif 5 (1x)                                                                  
	riff 6 (1x)                                                                   
            riff 1 (2x)
	riff 2 (6x)
	riff 3 (2x)
	riff 4 (4x)
	riff 5 (4x)  
	riff 6 (1x)
            riff 1 (2x)
            riff 2 (6x)


obs: todos os acordes são feitos com bicorde


	ESPERO QUE GOSTEM DA MINHA PRIMEIRA TABLATURA

	Se tiverem alguma duvida me manden um e-mail:
	[email protected]




Quer fazer uma correção nesta cifra?







    Comentários (0) Postar um Comentário

    Nenhum comentário encontrado. Seja o primeiro!