Cifra da música: Invocamos - Padre Marcelo

Esse cifra de Padre Marcelo já foi acessado por 1280 pessoas.

Comente

Veja também o vídeo da música tocada.


Intro. :E E/G# :A    A    A/B:C#m   A :E/G#  C#m :B4  :B    :

e|-7-5-4—5/7~--7-5-4---5 ~--------------------------------------------------
B|--------5----------------5-----5-7-7b9-9r7-5----4h5/7-5p4h5~ ----4/12~----
G|-----------------------------------------------4~-----------------2/4-----
D|--------------------------------------------------------------------------
A|--------------------------------------------------------------------------
E|--------------------------------------------------------------------------

    E9          E7M     E/G#  C#m     A    G#m          
Invocamos o Teu nome    Invo..camos o teu poder 
     A             C#m              B4  B     {E/G#  A  B }       
Invocamos a tua Presença no meio de nós 
    E9          E7+      E/G#    C#m         A G#m      
Invocamos o Teu nome     Invo....camos o teu poder
    A      F#m    C#m       G#m      B     { C#m  B    F#/A#   A}
Invocamos a tua Presença no meio de nós 
    E       E/G#         A9 
Manifesta Senhor o Teu Poder 
    C#m       B       F#/A# A
Manifesta Senhor a Tua força 
    G#m     A9           F#m    Cº        C#m          F#m     B 
Manifesta Senhor neste lugar o Teu grande amor que tudo pode curar. 
    E       E/G#          A9
Manifesta Senhor o Teu poder 
       C#m      B      F#/A#   A
Com prodígios milagres sinais 
     G#m    A9           F#m    Cº        C#m           A        B4  B 
Manifesta Senhor neste lugar o Teu grande amor que tudo pode curar.

Solo quase igual a introdução

           E  E/G#      A  A A/B  C#m   A        E/G#    C#m   A     C  Bb  F/A    Gm F
e|-7-5-4---5/7~---7-5-4-5~----------------------------------------------------------------
B|--------5-------------5-----5-7-7b9-9r7-5------4h5/7-5p4h5~-----------------5---6---9-6-
G|------------------------------------------4~------------------------3-5-7---------------
D|----------------------------------------------------------------------------------------
A|----------------------------------------------------------------------------------------
E|----------------------------------------------------------------------------------------

Sobe ½ tom 


Quer fazer uma correção nesta cifra?







    Comentários (0) Postar um Comentário

    Nenhum comentário encontrado. Seja o primeiro!