Cifra da música: I Can - Helloween

Esse cifra de Helloween já foi acessado por 415 pessoas.

Comente

A música I Can fez muito sucesso quando foi gravada por Helloween. Quer conhecer a letra dela? Veja a letra de I Can e cante.

Veja também o vídeo da música tocada.


--------------------------------------------------------------------------|---
--------------------------------------------------------------------------|---
--------------------------------------------------------------------------|---
--------------------------------------------------------------------------|---
-7777777--3333333--12-12-12-12-12-12-12--3333--5555--777777777777---------|---
-5555555--1111111--10-10-10-10-10-10-10--1111--3333--555555555555---------|---
^Guitar 1 Muted w/Heavy Distortion

------------------------------------------------------------------------|-----
------------------------------------------------------------------------|-----
------------------------------------------------------------------------|-----
-7------3------12------3------5------7----------------------------------|-----
-7------3------12------3------5------7----------------------------------|-----
-5------1------10------1------3------5----------------------------------|-----
  ^Guitar 2 Strum Chords

-------------------------------------------------------------------------|----
-------------------------------------------------------------------------|----
-9-9p7h9-9p7h9-9p7h9-9p7h9-9p7-------------------------------------------|----
-------------------------------------------------------------------------|----
-------------------------------------------------------------------------|----
-------------------------------------------------------------------------|----
^After awhile a 3rd guitar starts this riff.

------------------------------------------------------------------------------
------------------------------------------------------------------------------
------------------------------------------------------------------------------
------------------------------------------------------------------------------
------------------------------------------------------------------------------
--7-5-6-4-5-3-3-2-------------------------------------------------------------
^Final Riff in intro

Verse
------------------------------------------------------------------------------
------------------------------------------------------------------------------
-7---3---12----3----5---7-----------------------------------------------------
-7---3---12----3----5---7-----------------------------------------------------
-5---1---10----1----3---5-----------------------------------------------------
------------------------------------------------------------------------------
^Listen to the cd for the timing for this riff.

*1/2 way through the verse the intro starts again without the 3rd
guitar.

-----------|-----------|---------|--------------------------------------------
-----------|-----------|---------|--------------------------------------------
-----------|-----------|---------|--------------------------------------------
-7--5--3---|--7--5--3--|-7--5--3-|-7--5---------------------------------------
-7--5--3---|--7--5--3--|-7--5--3-|-7--5---------------------------------------
-5--3--1---|--5--3--1--|-5--3--1-|-5--3---------------------------------------
^Strum these before solo.


--8--6------------------------------------------------------------------------
--------8--6----6-------------------------------------------------------------
--------------8---------------------------------------------------------------
------------------------------------------------------------------------------
------------------------------------------------------------------------------
------------------------------------------------------------------------------
^This rings out at the end.




Quer fazer uma correção nesta cifra?







    Comentários (0) Postar um Comentário

    Nenhum comentário encontrado. Seja o primeiro!