Cifra da música: You Are The One (razão Da Adoração) - Chris Durán

Esse cifra de Chris Durán já foi acessado por 699 pessoas.

Comente

A música You Are The One (razão Da Adoração) fez muito sucesso quando foi gravada por Chris Durán. Quer conhecer as demais músicas? Conheça as letras das músicas gravadas por Chris Durán e aproveite.

Veja também o vídeo da música tocada.


  Intro: 

ocultar tablatura

e|-7-8-7-5-3--3-2-10--    |-7-8-7-5-3--3-2----- 
B|-8-8-8-3-3--3-3-10--    |-8-8-8-3-3--3-3-3--- 
G|--------------------    |----------------2--- 
D|--------------------    |----------------0--- 
A|--------------------    |-------------------- 
E|--------------------    |-------------------- 

e|-7-8-7-5-3--3-2-10--    |-7-8-7-5-3--3--3-3--  
B|-8-8-8-3-3--3-3-10--    |-8-8-8-3-3--3--3-3-- 
G|--------------------    |-------------------- 
D|--------------------    |-------------------- 
A|--------------------    |--------------------  
E|--------------------    |--------------------

  

G            D/F# 
You're the of David 
               Em 
Your name is Eloim 
         C/E                     G 
God Emanuel and forever ever reigns 

                    D/F# 
As long as i shal live 
                            Em 
The world will hear your voice 
                  C/E 
Tell about your love 
         D          G 
Pouring mercy over me 

             C D             G 
When i'am alone i think of you 
                C D             G 
early in a morning i think of you 
       D               C/E 
I'll never stop my dancing 
        
And worship before my king 
     D#                        D 
all that i want is your presence 

                 G           D/F# 
  R   You are the one, adoble one 
  e            Am                 C 
  f   Burning desire within my heart 
  r                G                  D/F#  
  ã   More than emotion, unquenchable love 
  o                         Am 
(2x) Poured out and spread all 
                   C 
     Over the nation 
    
ocultar tablatura

e|-7-8-7-5-3--3-2-10--    |-7-8-7-5-3--3-2----- 
B|-8-8-8-3-3--3-3-10--    |-8-8-8-3-3--3-3-3--- 
G|--------------------    |----------------2--- 
D|--------------------    |----------------0--- 
A|--------------------    |-------------------- 
E|--------------------    |-------------------- 

e|-7-8-7-5-3--3-2-10--    |-7-8-7-5---3-1-0------- 
B|-8-8-8-3-3--3-3-10--    |-8-8-8-3--------0-1-2-3 
G|--------------------    |----------------------- 
D|--------------------    |----------------------- 
A|--------------------    |-----------------------  
E|--------------------    |-----------------------

  

e recomeça em G 


Quer fazer uma correção nesta cifra?








    Comentários (0) Postar um Comentário

    Nenhum comentário encontrado. Seja o primeiro!